The biggest archive of guitar tabs on the web

Days Of Wine And Roses

by Wes Montgomery

  • Print
  • View it on YouTube
Good tab?
0

Tabbed completely and 100% by "Chisa".

*


E----------|--------|5-----5-8----|10---8~~|~8-----8----|
B--------9-|10------|8--8--8-8----|9----10~|~10----7-10-|
G----6-7-8-|9-------|7-------8----|8----8~~|~8-----8----|
D----7-8-9-|10------|--------7----|7-------|-------7----|
A----5-6-7-|8-------|-------------|--------|-------8----|
E----------|8-------|6------------|--------|------------|

            F maj 7   E flat Maj 7   D 7                



E---5~~5-----|---8--5-|-5--------|
B---6~~6--3~~|3--6----|-6-----6--|
G------7--3~~|3--7----|-6--6--6--|
D---8~~8--3~~|3--5----|-5-----6--|
A---5~~5--5~~|5-------|----------|
E------------|--------|-------6--|

    Gm7                E flat 7  





E-----5-----|-------------|----------10-|
B--6--6--8--|8-----3---5--|8--6--10--7--|
G--6--6-----|5--5--3---3--|5-----8---8--|
D--5--5-----|5-----3---5--|7-----10--7--|
A--6--------|7---------4--|5-----9------|
E-----------|5-----3------|-------------|

          Am7   Gm7 Am7 Dm7   D7




E----8------6-|-8--6--5--3--|5---------|----------------|
B----6------6-|-6--6--3--3--|3------5--|8----6----5--3--|
G----7------7-|-7--7--2--2--|4---------|7----5----4-----|
D----5------5-|-5--5--2--2--|----------|6----4----3-----|
A-------------|-------------|----------|----------------|
E-------------|-------------|5---------|6----4----3-----|

     Gm7              C7     Em7/A  A7  Bb7  Ab7  G7    




E--3----8----|8-----9-------|
B--3----8----|6-----9-------|
G--3----9----|6-----8---5---|
D--3----7----|6-----7-------|
A-------0----|--------------|
E--3---------|6-------------|

   Gm7  Am7   Bbm7  C7





E----------|5-----5-8----|10---8~~|~8-----8----|
B--10------|8--8--8-8----|9----10~|~10----7-10-|
G--9-------|7-------8----|8----8~~|~8-----8----|
D--10------|--------7----|7-------|-------7----|
A--8-------|-------------|--------|-------8----|
E--8-------|6------------|--------|------------|

            F maj 7   E flat Maj 7   D 7             


E---5~~5-----|---8--5-|-5--------|
B---6~~6--3~~|3--6----|-6-----6--|
G------7--3~~|3--7----|-6--6--6--|
D---8~~8--3~~|3--5----|-5-----6--|
A---5~~5--5~~|5-------|----------|
E------------|--------|-------6--|

    Gm7                E flat 7  




E-----5-----|-------------|-----------8--|
B--6--6--8--|8-----3---5--|6--8--10------|
G--6--6-----|5--5--3---3--|5-----10------|
D--5--5-----|5-----3---5--|7-----10------|
A--6--------|7---------4--|5-------------|
E-----------|5-----3------|------8-------|

            Am7   Gm7 Am7 Dm7   Dm7/C




E--12---|12----10---|8------------|5--------|--1--||
B--10---|9-----9----|8--10--8--6--|3-----3--|--1--||
G-------|------10---|9------5-----|3-----3--|--2--||
D--9----|8-----8----|7------7-----|3-----2--|--2--||
A-------|-----------|-------5-----|------3--|-----||
E-------|-----------|-------------|3--------|-----||

 B dim 7    Bb 7     Am7    D7     Gm7   C7  Fmaj7








This is the beginning of 'days of wine and roses' before wes starts his =
solo.

 The above is wes playing the song with some

additions to chords (such as added sixths or dimished fifths).

 Then tune the progresses to the solos where wes plays

over the above chord structure which is being played by an organ and =
bass.



Some of the above positions are difficult and take time to learn

but stick with it and the rewards will come!



Try to dampen open strings to prevent the playing of

extraneous notes.



When wes plays it is important to remember that

he uses his thumb instead of a pick which gives a mellower sound.



It is a good idea to listen to the tune before attempting

it to get the right rhythm and 'feel'.



Additions and corrections to earlier posting